1234... Cromatizando - Parte I

Compartilhar no FacebookCompartilhar no TwitterCompartilhar no WhatsAppSeguir Whiplash.Net

Por Theo Machado
Enviar Correções  

Nesta coluna iremos falar um pouco sobre o cromatismo! O cromatismo nada mais é do que caminhar de casa em casa em qualquer instrumento que possua trastes, ou vendo de uma outra forma, seguir de semitom em semitom.

A escala cromática pode assumir dois estados:

Ascendente: dó dó# ré ré# mi fá fá# sol sol# la lá# si dó

Anunciar bandas e shows de Rock e Heavy Metal

Descendente: dó réb ré mib mi fá solb sol lab lá sib si dó

Por convenção, da nota mi – fá e de si – dó existe um semitom de distância, por isso mi# = fá; fáb = mi; si# = dó; dób =si.

Abaixo segue o shape da escala cromática nas seis cordas da guitarra, partindo da nota lá (5ª casa - 6ª corda). Execute sempre com palhetada alternada.

publicidade

e-----------------------------------------1-2-3-4--I
b---------------------------------2-3-4-5----------I
g-------------------------2-3-4-5------------------I
d-----------------3-4-5-6--------------------------I
a---------4-5-6-7----------------------------------I
e-5-6-7-8------------------------------------------I

e-4-3-2-1------------------------------------------I
b---------5-4-3-2----------------------------------I
g-----------------5-4-3-2--------------------------I
d-------------------------6-5-4-3------------------I
a---------------------------------7-6-5-4----------I
e-----------------------------------------8-7-6-5--I

Muitos guitarristas utilizam essa escala como ferramenta melódica, ou seja, um elemento que pode enriquecer solos, passagens etc. Steve Morse é um dos grandes guitarristas que utilizam o cromatismo para enriquecer seu vocabulário melódico. Assim como John Petrucci e muitos outros. O cromatismo necessariamente não precisa ser usado apenas para o estudo técnico, como a maioria conhece e não gosta das famosas variações 1234, 1324 ... Procure o uso de cromatismo e você vai achar em temas já conhecidos. Quem não conhece o famoso tema da "Pantera Cor-de-rosa?

Anunciar bandas e shows de Rock e Heavy Metal

Ex. 1 Tema da "Pantera Cor-de-rosa":

e----------7-8------7-8--13-12-------12-11-----------I
b-7-8-9-10-----9-10------------10-13-------13-10--10-I
g-----------------------------------------------12---I
d----------------------------------------------------I
a----------------------------------------------------I
e----------------------------------------------------I

Anunciar bandas e shows de Rock e Heavy Metal

e----------7-8------7-8--13-12-------17-16~----------I
b-7-8-9-10-----9-10------------10-13-----------------I
g----------------------------------------------------I
d----------------------------------------------------I
a----------------------------------------------------I
e----------------------------------------------------I

pois então, olha o cromatismo aí, ou o tema do seriado de tv tosca do Batman & Robin (o pior é que legal).

Anunciar bandas e shows de Rock e Heavy Metal

Ex. 2 Tema do seriado de tv "Batman & Robin":

e-----------------------------------------------------------------I
b-----------------------------------------------------------------I
g-----------------------------------------------------------------I
d-----------------------------------------------------------------I
a-5-5-4-4-3-3-4-4-5-5-4-4-3-3-4-4-5-5-4-4-3-3-4-4-5-5-4-4-3-3-4-4-I
e-----------------------------------------------------------------I

Anunciar bandas e shows de Rock e Heavy Metal

O uso dessa escala é mais comum do que parece! Bom, depois desses exemplos não poderia deixar de transcrever um riff do meu projeto instrumental chamado Extreme fusion trio, onde utilizo o cromatismo em um riff hard rock, dobrado com o baixo. Este riff deve ser tocado com 4 notas por tempo. Segue então a primeira parte:

The 5th Season – Extreme fusion Trio - executar com Lite Palm Muting

e---------------------------------------------------------------------I
b---------------------------------------------------------------------I
g--------------------------------------------7--------10-9-8----9-8-8-I
d-----------------------------------7-8-9-10---10-9-8-------9-8-------I
a---------5---------8-7-6-----7-6-6-----------------------------------I
e-5-6-7-8---8-7-6-5-------7-6-----------------------------------------I

e---------------------------------------------------------------------I
b---------------------------------------------------------------------I
g--------------------------------------------7--------10-9-8----9-8-8-I
d-----------------------------------7-8-9-10---10-9-8-------9-8-------I
a---------5---------8-7-6-----7-6-6-----------------------------------I
e-5-6-7-8---8-7-6-5-------7-6-----------------------------------------I

Estude os exemplos acima com o metrônomo e palhetada alternada. O andamento na música fica em torno de 136 bpm. Comece a estudar devagar e depois aumente a velocidade aos poucos, vide coluna anterior.

Isso é só uma amostra do uso comum da escala cromática ou cromatismo, que é encontrado nos mais diversos estilos musicais, desde música clássica com compositores como Chopin, Paganini, Nicolai Rimsky Korsarkov, autor de "The Flight of the Bumblebee" o famoso "vôo do besouro" passando por chorinho e indo até riffs matadores como é o caso do riff da música Erotomania do Dream Theater. Procure escutar obras com o uso de cromatismo e usá-lo em suas composições e solos. Além de enriquecer a sonoridade do trecho pode dar uma ‘entortada’ no som, deixando menos convencional e mais próximo de uma identidade musical particular, item atualmente desvalorizado na música comercial em geral. Continuaremos com esse assunto e a segunda parte do riff na próxima coluna!

Um abraço!

publicidade


Guitar Shred

Warming UpWarming Up

Estudo x Diversão: Quanto tempo ele estudou para conseguir tocar?Estudo x Diversão
Quanto tempo ele estudou para conseguir tocar?

1234... Cromatizando - Parte II1234... Cromatizando - Parte II

Pentatônicas com tappingPentatônicas com tapping

Lick Combo 3Lick Combo 3

Modos Gregos - Parte IModos Gregos - Parte I

Modos Gregos - Parte IIModos Gregos - Parte II

Modos Gregos - Parte IIIModos Gregos - Parte III

Shapes de aperjosShapes de aperjos

Guitarra: Alguns exercícios de improvisação sobre apenas uma cordaGuitarra
Alguns exercícios de improvisação sobre apenas uma corda

Guitar Shred: Na nova coluna, dicas de palhetada sobre duas cordasGuitar Shred
Na nova coluna, dicas de palhetada sobre duas cordas

Guitar Shred: Nova edição: saltos de Cordas (string skipping)Guitar Shred
Nova edição: saltos de Cordas (string skipping)

Theo Machado: "Estudar é bem diferente de praticar!"

Todas as matérias sobre "Guitar Shred"




Compartilhar no FacebookCompartilhar no TwitterCompartilhar no WhatsAppSeguir Whiplash.Net


Metallica: a regressão técnica de Lars UlrichMetallica
A regressão técnica de Lars Ulrich

Megadeth: Mustaine abre o jogo sobre convite a Pepeu GomesMegadeth
Mustaine abre o jogo sobre convite a Pepeu Gomes


Sobre Theo Machado

Para saber mais sobre o autor visite o site www.theomachado.com.

Mais informações sobre Theo Machado

Mais matérias de Theo Machado no Whiplash.Net.

Cli336 WhiFin CliHo Cli336 Cli336 Cli336 Cli336 WhiFin